  0
SECTION
  2
HEADER
  9
$ACADVER
  1
AC1015
  9
$ACADMAINTVER
 70
     6
  9
$DWGCODEPAGE
  3
ANSI_1254
  9
$INSBASE
 10
0.0
 20
0.0
 30
0.0
  9
$EXTMIN
 10
0.0
 20
0.0
 30
0.0
  9
$EXTMAX
 10
279.4
 20
215.9
 30
0.0
  9
$LIMMIN
 10
0.0
 20
0.0
  9
$LIMMAX
 10
279.4
 20
215.9
  9
$ORTHOMODE
 70
     0
  9
$REGENMODE
 70
     1
  9
$FILLMODE
 70
     1
  9
$QTEXTMODE
 70
     0
  9
$MIRRTEXT
 70
     1
  9
$LTSCALE
 40
1.0
  9
$ATTMODE
 70
     1
  9
$TEXTSIZE
 40
3.5
  9
$TRACEWID
 40
1.0
  9
$TEXTSTYLE
  7
Standard
  9
$CLAYER
  8
0
  9
$CELTYPE
  6
ByLayer
  9
$CECOLOR
 62
   256
  9
$CELTSCALE
 40
1.0
  9
$DISPSILH
 70
     0
  9
$DIMSCALE
 40
1.0
  9
$DIMASZ
 40
3.5
  9
$DIMEXO
 40
1.0
  9
$DIMDLI
 40
3.75
  9
$DIMRND
 40
0.0
  9
$DIMDLE
 40
0.0
  9
$DIMEXE
 40
1.0
  9
$DIMTP
 40
0.0
  9
$DIMTM
 40
0.0
  9
$DIMTXT
 40
3.5
  9
$DIMCEN
 40
2.5
  9
$DIMTSZ
 40
0.0
  9
$DIMTOL
 70
     0
  9
$DIMLIM
 70
     0
  9
$DIMTIH
 70
     1
  9
$DIMTOH
 70
     1
  9
$DIMSE1
 70
     0
  9
$DIMSE2
 70
     0
  9
$DIMTAD
 70
     1
  9
$DIMZIN
 70
     0
  9
$DIMBLK
  1

  9
$DIMASO
 70
     1
  9
$DIMSHO
 70
     1
  9
$DIMPOST
  1

  9
$DIMAPOST
  1

  9
$DIMALT
 70
     0
  9
$DIMALTD
 70
     3
  9
$DIMALTF
 40
0.0393700787
  9
$DIMLFAC
 40
1.0
  9
$DIMTOFL
 70
     1
  9
$DIMTVP
 40
0.0
  9
$DIMTIX
 70
     0
  9
$DIMSOXD
 70
     0
  9
$DIMSAH
 70
     0
  9
$DIMBLK1
  1

  9
$DIMBLK2
  1

  9
$DIMSTYLE
  2
ISO-25
  9
$DIMCLRD
 70
     0
  9
$DIMCLRE
 70
     0
  9
$DIMCLRT
 70
     0
  9
$DIMTFAC
 40
1.0
  9
$DIMGAP
 40
1.524
  9
$DIMJUST
 70
     0
  9
$DIMSD1
 70
     0
  9
$DIMSD2
 70
     0
  9
$DIMTOLJ
 70
     0
  9
$DIMTZIN
 70
     0
  9
$DIMALTZ
 70
     0
  9
$DIMALTTZ
 70
     0
  9
$DIMUPT
 70
     0
  9
$DIMDEC
 70
     2
  9
$DIMTDEC
 70
     2
  9
$DIMALTU
 70
     2
  9
$DIMALTTD
 70
     3
  9
$DIMTXSTY
  7
Standard
  9
$DIMAUNIT
 70
     0
  9
$DIMADEC
 70
     2
  9
$DIMALTRND
 40
0.0
  9
$DIMAZIN
 70
     0
  9
$DIMDSEP
 70
    44
  9
$DIMATFIT
 70
     3
  9
$DIMFRAC
 70
     0
  9
$DIMLDRBLK
  1

  9
$DIMLUNIT
 70
     2
  9
$DIMLWD
 70
    -2
  9
$DIMLWE
 70
    -2
  9
$DIMTMOVE
 70
     0
  9
$LUNITS
 70
     2
  9
$LUPREC
 70
     2
  9
$SKETCHINC
 40
1.0
  9
$FILLETRAD
 40
10.0
  9
$AUNITS
 70
     0
  9
$AUPREC
 70
     2
  9
$MENU
  1
.
  9
$ELEVATION
 40
0.0
  9
$PELEVATION
 40
0.0
  9
$THICKNESS
 40
0.0
  9
$LIMCHECK
 70
     0
  9
$CHAMFERA
 40
0.0
  9
$CHAMFERB
 40
0.0
  9
$CHAMFERC
 40
0.0
  9
$CHAMFERD
 40
0.0
  9
$SKPOLY
 70
     0
  9
$TDCREATE
 40
2458985.706033009
  9
$TDUCREATE
 40
2458985.581033009
  9
$TDUPDATE
 40
2458985.706033345
  9
$TDUUPDATE
 40
2458985.581033345
  9
$TDINDWG
 40
0.0000000116
  9
$TDUSRTIMER
 40
0.0000000116
  9
$USRTIMER
 70
     1
  9
$ANGBASE
 50
0.0
  9
$ANGDIR
 70
     0
  9
$PDMODE
 70
     0
  9
$PDSIZE
 40
-1.0
  9
$PLINEWID
 40
0.0
  9
$SPLFRAME
 70
     0
  9
$SPLINETYPE
 70
     6
  9
$SPLINESEGS
 70
     8
  9
$HANDSEED
  5
EF
  9
$SURFTAB1
 70
     6
  9
$SURFTAB2
 70
     6
  9
$SURFTYPE
 70
     6
  9
$SURFU
 70
     6
  9
$SURFV
 70
     6
  9
$UCSBASE
  2

  9
$UCSNAME
  2

  9
$UCSORG
 10
0.0
 20
0.0
 30
0.0
  9
$UCSXDIR
 10
1.0
 20
0.0
 30
0.0
  9
$UCSYDIR
 10
0.0
 20
1.0
 30
0.0
  9
$UCSORTHOREF
  2

  9
$UCSORTHOVIEW
 70
     0
  9
$UCSORGTOP
 10
0.0
 20
0.0
 30
0.0
  9
$UCSORGBOTTOM
 10
0.0
 20
0.0
 30
0.0
  9
$UCSORGLEFT
 10
0.0
 20
0.0
 30
0.0
  9
$UCSORGRIGHT
 10
0.0
 20
0.0
 30
0.0
  9
$UCSORGFRONT
 10
0.0
 20
0.0
 30
0.0
  9
$UCSORGBACK
 10
0.0
 20
0.0
 30
0.0
  9
$PUCSBASE
  2

  9
$PUCSNAME
  2

  9
$PUCSORG
 10
0.0
 20
0.0
 30
0.0
  9
$PUCSXDIR
 10
1.0
 20
0.0
 30
0.0
  9
$PUCSYDIR
 10
0.0
 20
1.0
 30
0.0
  9
$PUCSORTHOREF
  2

  9
$PUCSORTHOVIEW
 70
     0
  9
$PUCSORGTOP
 10
0.0
 20
0.0
 30
0.0
  9
$PUCSORGBOTTOM
 10
0.0
 20
0.0
 30
0.0
  9
$PUCSORGLEFT
 10
0.0
 20
0.0
 30
0.0
  9
$PUCSORGRIGHT
 10
0.0
 20
0.0
 30
0.0
  9
$PUCSORGFRONT
 10
0.0
 20
0.0
 30
0.0
  9
$PUCSORGBACK
 10
0.0
 20
0.0
 30
0.0
  9
$USERI1
 70
     0
  9
$USERI2
 70
     0
  9
$USERI3
 70
     0
  9
$USERI4
 70
     0
  9
$USERI5
 70
     0
  9
$USERR1
 40
0.0
  9
$USERR2
 40
0.0
  9
$USERR3
 40
0.0
  9
$USERR4
 40
0.0
  9
$USERR5
 40
0.0
  9
$WORLDVIEW
 70
     1
  9
$SHADEDGE
 70
     3
  9
$SHADEDIF
 70
    70
  9
$TILEMODE
 70
     1
  9
$MAXACTVP
 70
    64
  9
$PINSBASE
 10
0.0
 20
0.0
 30
0.0
  9
$PLIMCHECK
 70
     0
  9
$PEXTMIN
 10
1.0000000000E+20
 20
1.0000000000E+20
 30
1.0000000000E+20
  9
$PEXTMAX
 10
-1.0000000000E+20
 20
-1.0000000000E+20
 30
-1.0000000000E+20
  9
$PLIMMIN
 10
0.0
 20
0.0
  9
$PLIMMAX
 10
420.0
 20
297.0
  9
$UNITMODE
 70
     0
  9
$VISRETAIN
 70
     1
  9
$PLINEGEN
 70
     0
  9
$PSLTSCALE
 70
     1
  9
$TREEDEPTH
 70
  3020
  9
$CMLSTYLE
  2
Standard
  9
$CMLJUST
 70
     0
  9
$CMLSCALE
 40
20.0
  9
$PROXYGRAPHICS
 70
     1
  9
$MEASUREMENT
 70
     1
  9
$CELWEIGHT
370
    -1
  9
$ENDCAPS
280
     0
  9
$JOINSTYLE
280
     0
  9
$LWDISPLAY
290
     1
  9
$INSUNITS
 70
     4
  9
$HYPERLINKBASE
  1

  9
$STYLESHEET
  1

  9
$XEDIT
290
     1
  9
$CEPSNTYPE
380
     0
  9
$PSTYLEMODE
290
     1
  9
$FINGERPRINTGUID
  2
{a3415b0f-14ab-49d7-9865-d7a2d7cf65b0}
  9
$VERSIONGUID
  2
{FAEB1C32-E019-11D5-929B-00C0DF256EC4}
  9
$EXTNAMES
290
     1
  9
$PSVPSCALE
 40
0.0
  9
$OLESTARTUP
290
     0
  0
ENDSEC
  0
SECTION
  2
CLASSES
  0
CLASS
  1
ACDBDICTIONARYWDFLT
  2
AcDbDictionaryWithDefault
  3
ObjectDBX Classes
 90
        0
280
     0
281
     0
  0
CLASS
  1
VISUALSTYLE
  2
AcDbVisualStyle
  3
ObjectDBX Classes
 90
     4095
280
     0
281
     0
  0
CLASS
  1
MATERIAL
  2
AcDbMaterial
  3
ObjectDBX Classes
 90
     1153
280
     0
281
     0
  0
CLASS
  1
SCALE
  2
AcDbScale
  3
ObjectDBX Classes
 90
     1153
280
     0
281
     0
  0
CLASS
  1
TABLESTYLE
  2
AcDbTableStyle
  3
ObjectDBX Classes
 90
     4095
280
     0
281
     0
  0
CLASS
  1
MLEADERSTYLE
  2
AcDbMLeaderStyle
  3
ACDB_MLEADERSTYLE_CLASS
 90
     4095
280
     0
281
     0
  0
CLASS
  1
SUN
  2
AcDbSun
  3
SCENEOE
 90
     1153
280
     0
281
     0
  0
CLASS
  1
ACDBPLACEHOLDER
  2
AcDbPlaceHolder
  3
ObjectDBX Classes
 90
        0
280
     0
281
     0
  0
CLASS
  1
LAYOUT
  2
AcDbLayout
  3
ObjectDBX Classes
 90
        0
280
     0
281
     0
  0
ENDSEC
  0
SECTION
  2
TABLES
  0
TABLE
  2
VPORT
  5
8
330
0
100
AcDbSymbolTable
 70
     1
  0
VPORT
  5
29
330
8
100
AcDbSymbolTableRecord
100
AcDbViewportTableRecord
  2
*Active
 70
     0
 10
0.0
 20
0.0
 11
1.0
 21
1.0
 12
139.7
 22
107.95
 13
0.0
 23
0.0
 14
10.0
 24
10.0
 15
10.0
 25
10.0
 16
0.0
 26
0.0
 36
1.0
 17
0.0
 27
0.0
 37
0.0
 40
215.9
 41
1.2941176471
 42
50.0
 43
0.0
 44
0.0
 50
0.0
 51
0.0
 71
     0
 72
  2000
 73
     1
 74
     3
 75
     0
 76
     0
 77
     0
 78
     0
281
     0
 65
     1
110
0.0
120
0.0
130
0.0
111
1.0
121
0.0
131
0.0
112
0.0
122
1.0
132
0.0
 79
     0
146
0.0
  0
ENDTAB
  0
TABLE
  2
LTYPE
  5
5
330
0
100
AcDbSymbolTable
 70
     6
  0
LTYPE
  5
14
330
5
100
AcDbSymbolTableRecord
100
AcDbLinetypeTableRecord
  2
ByBlock
 70
     0
  3

 72
    65
 73
     0
 40
0.0
  0
LTYPE
  5
15
330
5
100
AcDbSymbolTableRecord
100
AcDbLinetypeTableRecord
  2
ByLayer
 70
     0
  3

 72
    65
 73
     0
 40
0.0
  0
LTYPE
  5
16
330
5
100
AcDbSymbolTableRecord
100
AcDbLinetypeTableRecord
  2
Continuous
 70
     0
  3
Solid line
 72
    65
 73
     0
 40
0.0
  0
LTYPE
  5
6E
330
5
100
AcDbSymbolTableRecord
100
AcDbLinetypeTableRecord
  2
HIDDEN
 70
     0
  3
Hidden __ __ __ __ __ __ __ __ __ __ __ __ __ __
 72
    65
 73
     2
 40
1.905
 49
1.27
 74
     0
 49
-0.635
 74
     0
  0
LTYPE
  5
6F
330
5
100
AcDbSymbolTableRecord
100
AcDbLinetypeTableRecord
  2
PHANTOM
 70
     0
  3
Phantom ______  __  __  ______  __  __  ______
 72
    65
 73
     6
 40
12.7
 49
6.35
 74
     0
 49
-1.27
 74
     0
 49
1.27
 74
     0
 49
-1.27
 74
     0
 49
1.27
 74
     0
 49
-1.27
 74
     0
  0
LTYPE
  5
70
330
5
100
AcDbSymbolTableRecord
100
AcDbLinetypeTableRecord
  2
CENTER
 70
     0
  3
Center ____ _ ____ _ ____ _ ____ _ ____ _ ____
 72
    65
 73
     4
 40
10.16
 49
6.35
 74
     0
 49
-1.27
 74
     0
 49
1.27
 74
     0
 49
-1.27
 74
     0
  0
LTYPE
  5
71
330
5
100
AcDbSymbolTableRecord
100
AcDbLinetypeTableRecord
  2
CENTERX2
 70
     0
  3
Center (2x) ________  __  ________  __  _____
 72
    65
 73
     4
 40
20.32
 49
12.7
 74
     0
 49
-2.54
 74
     0
 49
2.54
 74
     0
 49
-2.54
 74
     0
  0
LTYPE
  5
72
330
5
100
AcDbSymbolTableRecord
100
AcDbLinetypeTableRecord
  2
DOT2
 70
     0
  3
Dot (.5x) ........................................
 72
    65
 73
     2
 40
0.635
 49
0.0
 74
     0
 49
-0.635
 74
     0
  0
ENDTAB
  0
TABLE
  2
LAYER
  5
2
330
0
100
AcDbSymbolTable
 70
    17
  0
LAYER
  5
10
330
2
100
AcDbSymbolTableRecord
100
AcDbLayerTableRecord
  2
0
 70
     0
 62
     7
  6
Continuous
370
    -3
390
F
  0
LAYER
  5
73
330
2
100
AcDbSymbolTableRecord
100
AcDbLayerTableRecord
  2
FORMAT
 70
     0
 62
     7
  6
Continuous
370
    -3
390
F
  0
LAYER
  5
74
330
2
100
AcDbSymbolTableRecord
100
AcDbLayerTableRecord
  2
YARDIMCI_GEOMETRI
 70
     0
 62
    -6
  6
Continuous
290
     0
370
    -3
390
F
  0
LAYER
  5
75
330
2
100
AcDbSymbolTableRecord
100
AcDbLayerTableRecord
  2
SAYFA_CERCEVESI
 70
     0
 62
     7
  6
Continuous
370
    25
390
F
  0
LAYER
  5
76
330
2
100
AcDbSymbolTableRecord
100
AcDbLayerTableRecord
  2
ANTET
 70
     0
 62
     7
  6
Continuous
370
    -3
390
F
  0
LAYER
  5
77
330
2
100
AcDbSymbolTableRecord
100
AcDbLayerTableRecord
  2
OLCU
 70
     0
 62
   150
  6
Continuous
370
    -3
390
F
  0
LAYER
  5
78
330
2
100
AcDbSymbolTableRecord
100
AcDbLayerTableRecord
  2
METIN
 70
     0
 62
    96
  6
Continuous
370
    -3
390
F
  0
LAYER
  5
79
330
2
100
AcDbSymbolTableRecord
100
AcDbLayerTableRecord
  2
BALON
 70
     0
 62
     5
  6
Continuous
370
    -3
390
F
  0
LAYER
  5
7A
330
2
100
AcDbSymbolTableRecord
100
AcDbLayerTableRecord
  2
VURGU
 70
     0
 62
     7
  6
Continuous
370
    -3
390
F
  0
LAYER
  5
7B
330
2
100
AcDbSymbolTableRecord
100
AcDbLayerTableRecord
  2
SILIK
 70
     0
 62
     7
  6
Continuous
370
    -3
390
F
  0
LAYER
  5
7C
330
2
100
AcDbSymbolTableRecord
100
AcDbLayerTableRecord
  2
MODEL
 70
     0
 62
     7
  6
Continuous
370
    -3
390
F
  0
LAYER
  5
7D
330
2
100
AcDbSymbolTableRecord
100
AcDbLayerTableRecord
  2
DETAYLANDıRMA
 70
     0
 62
   190
  6
Continuous
370
    -3
390
F
  0
LAYER
  5
7E
330
2
100
AcDbSymbolTableRecord
100
AcDbLayerTableRecord
  2
TOLERANS
 70
     0
 62
   230
  6
Continuous
370
    -3
390
F
  0
LAYER
  5
7F
330
2
100
AcDbSymbolTableRecord
100
AcDbLayerTableRecord
  2
MERKEZ_CIZGILERI
 70
     0
 62
    30
  6
Continuous
370
    -3
390
F
  0
LAYER
  5
80
330
2
100
AcDbSymbolTableRecord
100
AcDbLayerTableRecord
  2
KESIT-DETAY_CIZGILERI
 70
     0
 62
     7
  6
Continuous
370
    -3
390
F
  0
LAYER
  5
81
330
2
100
AcDbSymbolTableRecord
100
AcDbLayerTableRecord
  2
\U+041E\U+0421\U+0415\U+0412\U+042B\U+0415
 70
     0
 62
     7
  6
Continuous
370
    -3
390
F
  0
LAYER
  5
82
330
2
100
AcDbSymbolTableRecord
100
AcDbLayerTableRecord
  2
\U+0412\U+041E\U+0414\U+042F\U+041D\U+042B\U+0415_\U+0417\U+041D\U+0410\U+041A\U+0418
 70
     0
 62
    11
  6
Continuous
370
    -3
390
F
  0
ENDTAB
  0
TABLE
  2
STYLE
  5
3
330
0
100
AcDbSymbolTable
 70
     1
  0
STYLE
  5
11
330
3
100
AcDbSymbolTableRecord
100
AcDbTextStyleTableRecord
  2
Standard
 70
     0
 40
0.0
 41
1.0
 50
0.0
 71
     0
 42
3.5
  3
txt
  4

  0
ENDTAB
  0
TABLE
  2
VIEW
  5
6
330
0
100
AcDbSymbolTable
 70
     0
  0
ENDTAB
  0
TABLE
  2
UCS
  5
7
330
0
100
AcDbSymbolTable
 70
     0
  0
ENDTAB
  0
TABLE
  2
APPID
  5
9
330
0
100
AcDbSymbolTable
 70
     1
  0
APPID
  5
12
330
9
100
AcDbSymbolTableRecord
100
AcDbRegAppTableRecord
  2
ACAD
 70
     0
  0
ENDTAB
  0
TABLE
  2
DIMSTYLE
  5
A
330
0
100
AcDbSymbolTable
 70
     1
100
AcDbDimStyleTable
  0
DIMSTYLE
105
27
330
A
100
AcDbSymbolTableRecord
100
AcDbDimStyleTableRecord
  2
ISO-25
 70
     0
 41
2.5
 42
0.625
 43
3.75
 44
1.25
 73
     0
 74
     0
 77
     1
 78
     8
140
2.5
141
2.5
143
0.0393700787
147
0.625
171
     3
172
     1
178
     0
271
     2
272
     2
274
     3
278
    44
283
     0
284
     8
340
11
  0
ENDTAB
  0
TABLE
  2
BLOCK_RECORD
  5
1
330
0
100
AcDbSymbolTable
 70
     2
  0
BLOCK_RECORD
  5
1F
330
1
100
AcDbSymbolTableRecord
100
AcDbBlockTableRecord
  2
*Model_Space
340
22
  0
BLOCK_RECORD
  5
1B
330
1
100
AcDbSymbolTableRecord
100
AcDbBlockTableRecord
  2
*Paper_Space
340
1E
  0
BLOCK_RECORD
  5
23
330
1
100
AcDbSymbolTableRecord
100
AcDbBlockTableRecord
  2
*Paper_Space0
340
26
  0
BLOCK_RECORD
  5
88
330
1
100
AcDbSymbolTableRecord
100
AcDbBlockTableRecord
  2
SW_CENTERMARKSYMBOL_0
340
0
102
{BLKREFS
331
93
102
}
  0
ENDTAB
  0
ENDSEC
  0
SECTION
  2
BLOCKS
  0
BLOCK
  5
20
330
1F
100
AcDbEntity
  8
0
100
AcDbBlockBegin
  2
*Model_Space
 70
     0
 10
0.0
 20
0.0
 30
0.0
  3
*Model_Space
  1

  0
ENDBLK
  5
21
330
1F
100
AcDbEntity
  8
0
100
AcDbBlockEnd
  0
BLOCK
  5
1C
330
1B
100
AcDbEntity
 67
     1
  8
0
100
AcDbBlockBegin
  2
*Paper_Space
 70
     0
 10
0.0
 20
0.0
 30
0.0
  3
*Paper_Space
  1

  0
ENDBLK
  5
1D
330
1B
100
AcDbEntity
 67
     1
  8
0
100
AcDbBlockEnd
  0
BLOCK
  5
24
330
23
100
AcDbEntity
  8
0
100
AcDbBlockBegin
  2
*Paper_Space0
 70
     0
 10
0.0
 20
0.0
 30
0.0
  3
*Paper_Space0
  1

  0
ENDBLK
  5
25
330
23
100
AcDbEntity
  8
0
100
AcDbBlockEnd
  0
BLOCK
  5
89
330
88
100
AcDbEntity
  8
0
100
AcDbBlockBegin
  2
SW_CENTERMARKSYMBOL_0
 70
     0
 10
0.0
 20
0.0
 30
0.0
  3
SW_CENTERMARKSYMBOL_0
  1

  0
LINE
  5
8B
330
88
100
AcDbEntity
  8
FORMAT
 62
     0
100
AcDbLine
 10
0.0
 20
0.0
 30
0.0
 11
0.0
 21
2.5
 31
0.0
  0
LINE
  5
8C
330
88
100
AcDbEntity
  8
FORMAT
 62
     0
100
AcDbLine
 10
0.0
 20
0.0
 30
0.0
 11
-2.5
 21
0.0
 31
0.0
  0
LINE
  5
8D
330
88
100
AcDbEntity
  8
FORMAT
 62
     0
100
AcDbLine
 10
0.0
 20
0.0
 30
0.0
 11
0.0
 21
-2.5
 31
0.0
  0
LINE
  5
8E
330
88
100
AcDbEntity
  8
FORMAT
 62
     0
100
AcDbLine
 10
0.0
 20
0.0
 30
0.0
 11
2.5
 21
0.0
 31
0.0
  0
LINE
  5
8F
330
88
100
AcDbEntity
  8
FORMAT
 62
     0
100
AcDbLine
 10
0.0
 20
5.0
 30
0.0
 11
0.0
 21
127.5
 31
0.0
  0
LINE
  5
90
330
88
100
AcDbEntity
  8
FORMAT
 62
     0
100
AcDbLine
 10
-5.0
 20
0.0
 30
0.0
 11
-127.5
 21
0.0
 31
0.0
  0
LINE
  5
91
330
88
100
AcDbEntity
  8
FORMAT
 62
     0
100
AcDbLine
 10
0.0
 20
-5.0
 30
0.0
 11
0.0
 21
-127.5
 31
0.0
  0
LINE
  5
92
330
88
100
AcDbEntity
  8
FORMAT
 62
     0
100
AcDbLine
 10
5.0
 20
0.0
 30
0.0
 11
127.5
 21
0.0
 31
0.0
  0
ENDBLK
  5
8A
330
88
100
AcDbEntity
  8
0
100
AcDbBlockEnd
  0
ENDSEC
  0
SECTION
  2
ENTITIES
  0
CIRCLE
  5
83
330
1F
100
AcDbEntity
  8
0
  6
Continuous
 62
     7
370
    25
100
AcDbCircle
 10
130.6810329512
 20
112.0420513222
 30
0.0
 40
125.0
  0
CIRCLE
  5
84
330
1F
100
AcDbEntity
  8
0
  6
Continuous
 62
     7
370
    25
100
AcDbCircle
 10
130.6810329512
 20
112.0420513222
 30
0.0
 40
110.2
  0
CIRCLE
  5
85
330
1F
100
AcDbEntity
  8
0
  6
Continuous
 62
     7
370
    25
100
AcDbCircle
 10
130.6810329512
 20
112.0420513222
 30
0.0
 40
110.0799079299526
  0
CIRCLE
  5
86
330
1F
100
AcDbEntity
  8
0
  6
Continuous
 62
     7
370
    25
100
AcDbCircle
 10
130.6810329512
 20
112.0420513222
 30
0.0
 40
99.22009207004746
  0
CIRCLE
  5
87
330
1F
100
AcDbEntity
  8
0
  6
Continuous
 62
     7
370
    25
100
AcDbCircle
 10
130.6810329512
 20
112.0420513222
 30
0.0
 40
99.10000000000005
  0
INSERT
  5
93
330
1F
100
AcDbEntity
  8
FORMAT
 62
     7
100
AcDbBlockReference
  2
SW_CENTERMARKSYMBOL_0
 10
130.6810329512
 20
112.0420513222
 30
0.0
  0
ARC
  5
94
330
1F
100
AcDbEntity
  8
0
  6
Continuous
 62
     7
370
    25
100
AcDbCircle
 10
-300.4850563398
 20
235.0420513222
 30
0.0
 40
2.000000000000041
100
AcDbArc
 50
77.4170375059
 51
90.0
  0
ARC
  5
95
330
1F
100
AcDbEntity
  8
0
  6
Continuous
 62
     7
370
    25
100
AcDbCircle
 10
-300.4850563398
 20
-10.9579486778
 30
0.0
 40
2.00000000000002
100
AcDbArc
 50
270.0
 51
282.5829624941
  0
LINE
  5
96
330
1F
100
AcDbEntity
  8
0
  6
Continuous
 62
     7
370
    25
100
AcDbLine
 10
-300.4850563965
 20
237.0420513222
 30
0.0
 11
-429.2645515314
 21
237.0420513222
 31
0.0
  0
LINE
  5
97
330
1F
100
AcDbEntity
  8
0
  6
Continuous
 62
     7
370
    25
100
AcDbLine
 10
-429.2645515314
 20
-12.9579486778
 30
0.0
 11
-300.4850563965
 21
-12.9579486778
 31
0.0
  0
LINE
  5
98
330
1F
100
AcDbEntity
  8
0
  6
Continuous
 62
     7
370
    25
100
AcDbLine
 10
-300.0493501685
 20
-12.9099147847
 30
0.0
 11
-244.4797610304
 21
-0.5059870412
 31
0.0
  0
LINE
  5
99
330
1F
100
AcDbEntity
  8
0
  6
Continuous
 62
     7
370
    25
100
AcDbLine
 10
-244.4797610304
 20
224.5900896857
 30
0.0
 11
-300.0493501685
 21
236.9940174291
 31
0.0
  0
ARC
  5
9A
330
1F
100
AcDbEntity
  8
0
  6
Continuous
 62
     7
370
    25
100
AcDbCircle
 10
-244.0440541885
 20
226.5420513222
 30
0.0
 40
2.000000000000041
100
AcDbArc
 50
257.4170375059
 51
270.0
  0
ARC
  5
9B
330
1F
100
AcDbEntity
  8
0
  6
Continuous
 62
     7
370
    25
100
AcDbCircle
 10
-244.0440541885
 20
-2.4579486778
 30
0.0
 40
2.000000000000033
100
AcDbArc
 50
90.0
 51
102.5829624941
  0
LINE
  5
9C
330
1F
100
AcDbEntity
  8
0
  6
Continuous
 62
     7
370
    25
100
AcDbLine
 10
-124.26455928
 20
224.542048342
 30
0.0
 11
-244.0440529398
 21
224.542048342
 31
0.0
  0
LINE
  5
9D
330
1F
100
AcDbEntity
  8
0
  6
Continuous
 62
     7
370
    25
100
AcDbLine
 10
-244.0440529398
 20
-0.4579456975
 30
0.0
 11
-124.26455928
 21
-0.4579456975
 31
0.0
  0
LINE
  5
9E
330
1F
100
AcDbEntity
  8
0
  6
Continuous
 62
     7
370
    25
100
AcDbLine
 10
-429.2645515314
 20
237.0420513222
 30
0.0
 11
-429.2645515314
 21
-12.9579486778
 31
0.0
  0
LINE
  5
9F
330
1F
100
AcDbEntity
  8
0
  6
Continuous
 62
     7
370
    25
100
AcDbLine
 10
-124.26455928
 20
224.542048342
 30
0.0
 11
-124.26455928
 21
-0.4579456975
 31
0.0
  0
LINE
  5
A0
330
1F
100
AcDbEntity
  8
0
  6
Continuous
 62
     1
370
    25
100
AcDbLine
 10
-300.0493501685
 20
236.9940174291
 30
0.0
 11
-300.0493501685
 21
-12.9099147847
 31
0.0
  0
LINE
  5
A1
330
1F
100
AcDbEntity
  8
0
  6
Continuous
 62
     1
370
    25
100
AcDbLine
 10
-300.4850563965
 20
237.0420513222
 30
0.0
 11
-300.4850563965
 21
-12.9579486778
 31
0.0
  0
LINE
  5
A2
330
1F
100
AcDbEntity
  8
0
  6
Continuous
 62
     1
370
    25
100
AcDbLine
 10
-244.4797610304
 20
224.5900896857
 30
0.0
 11
-244.4797610304
 21
-0.5059870412
 31
0.0
  0
LINE
  5
A3
330
1F
100
AcDbEntity
  8
0
  6
Continuous
 62
     1
370
    25
100
AcDbLine
 10
-244.0440529398
 20
224.542048342
 30
0.0
 11
-244.0440529398
 21
-0.4579456975
 31
0.0
  0
ARC
  5
A4
330
1F
100
AcDbEntity
  8
0
  6
Continuous
 62
     7
370
    25
100
AcDbCircle
 10
253.6810329512
 20
489.5383176758
 30
0.0
 40
2.000000000000056
100
AcDbArc
 50
347.4170375059
 51
0.0
  0
ARC
  5
A5
330
1F
100
AcDbEntity
  8
0
  6
Continuous
 62
     7
370
    25
100
AcDbCircle
 10
7.6810329512
 20
489.5383176758
 30
0.0
 40
2.000000000000015
100
AcDbArc
 50
180.0
 51
192.5829624941
  0
LINE
  5
A6
330
1F
100
AcDbEntity
  8
0
  6
Continuous
 62
     7
370
    25
100
AcDbLine
 10
255.6810329512
 20
489.5383177325
 30
0.0
 11
255.6810329512
 21
618.3178128674
 31
0.0
  0
LINE
  5
A7
330
1F
100
AcDbEntity
  8
0
  6
Continuous
 62
     7
370
    25
100
AcDbLine
 10
5.6810329512
 20
618.3178128674
 30
0.0
 11
5.6810329512
 21
489.5383177325
 31
0.0
  0
LINE
  5
A8
330
1F
100
AcDbEntity
  8
0
  6
Continuous
 62
     7
370
    25
100
AcDbLine
 10
5.7290668443
 20
489.1026115045
 30
0.0
 11
18.1329945877
 21
433.5330223664
 31
0.0
  0
LINE
  5
A9
330
1F
100
AcDbEntity
  8
0
  6
Continuous
 62
     7
370
    25
100
AcDbLine
 10
243.2290713146
 20
433.5330223664
 30
0.0
 11
255.6329990581
 21
489.1026115045
 31
0.0
  0
ARC
  5
AA
330
1F
100
AcDbEntity
  8
0
  6
Continuous
 62
     7
370
    25
100
AcDbCircle
 10
245.1810329512
 20
433.0973155245
 30
0.0
 40
2.000000000000016
100
AcDbArc
 50
167.4170375059
 51
180.0
  0
ARC
  5
AB
330
1F
100
AcDbEntity
  8
0
  6
Continuous
 62
     7
370
    25
100
AcDbCircle
 10
16.1810329512
 20
433.0973155245
 30
0.0
 40
2.000000000000018
100
AcDbArc
 50
0.0
 51
12.5829624941
  0
LINE
  5
AC
330
1F
100
AcDbEntity
  8
0
  6
Continuous
 62
     7
370
    25
100
AcDbLine
 10
243.1810299709
 20
313.317820616
 30
0.0
 11
243.1810299709
 21
433.0973142758
 31
0.0
  0
LINE
  5
AD
330
1F
100
AcDbEntity
  8
0
  6
Continuous
 62
     7
370
    25
100
AcDbLine
 10
18.1810359314
 20
433.0973142758
 30
0.0
 11
18.1810359314
 21
313.317820616
 31
0.0
  0
LINE
  5
AE
330
1F
100
AcDbEntity
  8
0
  6
Continuous
 62
     7
370
    25
100
AcDbLine
 10
255.6810329512
 20
618.3178128674
 30
0.0
 11
5.6810329512
 21
618.3178128674
 31
0.0
  0
LINE
  5
AF
330
1F
100
AcDbEntity
  8
0
  6
Continuous
 62
     7
370
    25
100
AcDbLine
 10
243.1810299709
 20
313.317820616
 30
0.0
 11
18.1810359314
 21
313.317820616
 31
0.0
  0
LINE
  5
B0
330
1F
100
AcDbEntity
  8
0
  6
Continuous
 62
     1
370
    25
100
AcDbLine
 10
255.6329990581
 20
489.1026115045
 30
0.0
 11
5.7290668443
 21
489.1026115045
 31
0.0
  0
LINE
  5
B1
330
1F
100
AcDbEntity
  8
0
  6
Continuous
 62
     1
370
    25
100
AcDbLine
 10
255.6810329512
 20
489.5383177325
 30
0.0
 11
5.6810329512
 21
489.5383177325
 31
0.0
  0
LINE
  5
B2
330
1F
100
AcDbEntity
  8
0
  6
Continuous
 62
     1
370
    25
100
AcDbLine
 10
243.2290713146
 20
433.5330223664
 30
0.0
 11
18.1329945877
 21
433.5330223664
 31
0.0
  0
LINE
  5
B3
330
1F
100
AcDbEntity
  8
0
  6
Continuous
 62
     1
370
    25
100
AcDbLine
 10
243.1810299709
 20
433.0973142758
 30
0.0
 11
18.1810359314
 21
433.0973142758
 31
0.0
  0
ARC
  5
B4
330
1F
100
AcDbEntity
  8
0
  6
Continuous
 62
     7
370
    25
100
AcDbCircle
 10
532.5493787635
 20
-10.9579486778
 30
0.0
 40
2.00000000000002
100
AcDbArc
 50
257.4170375059
 51
270.0
  0
ARC
  5
B5
330
1F
100
AcDbEntity
  8
0
  6
Continuous
 62
     7
370
    25
100
AcDbCircle
 10
532.5493787635
 20
235.0420513222
 30
0.0
 40
2.000000000000041
100
AcDbArc
 50
90.0
 51
102.5829624941
  0
LINE
  5
B6
330
1F
100
AcDbEntity
  8
0
  6
Continuous
 62
     7
370
    25
100
AcDbLine
 10
532.5493788202
 20
-12.9579486778
 30
0.0
 11
661.3288739551
 21
-12.9579486778
 31
0.0
  0
LINE
  5
B7
330
1F
100
AcDbEntity
  8
0
  6
Continuous
 62
     7
370
    25
100
AcDbLine
 10
661.3288739551
 20
237.0420513222
 30
0.0
 11
532.5493788202
 21
237.0420513222
 31
0.0
  0
LINE
  5
B8
330
1F
100
AcDbEntity
  8
0
  6
Continuous
 62
     7
370
    25
100
AcDbLine
 10
532.1136725922
 20
236.9940174291
 30
0.0
 11
476.5440834541
 21
224.5900896857
 31
0.0
  0
LINE
  5
B9
330
1F
100
AcDbEntity
  8
0
  6
Continuous
 62
     7
370
    25
100
AcDbLine
 10
476.5440834541
 20
-0.5059870412
 30
0.0
 11
532.1136725922
 21
-12.9099147847
 31
0.0
  0
ARC
  5
BA
330
1F
100
AcDbEntity
  8
0
  6
Continuous
 62
     7
370
    25
100
AcDbCircle
 10
476.1083766122
 20
-2.4579486778
 30
0.0
 40
2.000000000000016
100
AcDbArc
 50
77.4170375059
 51
90.0
  0
ARC
  5
BB
330
1F
100
AcDbEntity
  8
0
  6
Continuous
 62
     7
370
    25
100
AcDbCircle
 10
476.1083766122
 20
226.5420513222
 30
0.0
 40
2.000000000000028
100
AcDbArc
 50
270.0
 51
282.5829624941
  0
LINE
  5
BC
330
1F
100
AcDbEntity
  8
0
  6
Continuous
 62
     7
370
    25
100
AcDbLine
 10
356.3288817037
 20
-0.4579456975
 30
0.0
 11
476.1083753635
 21
-0.4579456975
 31
0.0
  0
LINE
  5
BD
330
1F
100
AcDbEntity
  8
0
  6
Continuous
 62
     7
370
    25
100
AcDbLine
 10
476.1083753635
 20
224.542048342
 30
0.0
 11
356.3288817037
 21
224.542048342
 31
0.0
  0
LINE
  5
BE
330
1F
100
AcDbEntity
  8
0
  6
Continuous
 62
     7
370
    25
100
AcDbLine
 10
661.3288739551
 20
112.0420513222
 30
0.0
 11
661.3288739551
 21
237.0420513222
 31
0.0
  0
LINE
  5
BF
330
1F
100
AcDbEntity
  8
0
  6
Continuous
 62
     7
370
    25
100
AcDbLine
 10
661.3288739551
 20
-12.9579486778
 30
0.0
 11
661.3288739551
 21
112.0420513222
 31
0.0
  0
LINE
  5
C0
330
1F
100
AcDbEntity
  8
0
  6
Continuous
 62
     7
370
    25
100
AcDbLine
 10
356.3288817037
 20
112.0420513222
 30
0.0
 11
356.3288817037
 21
224.542048342
 31
0.0
  0
LINE
  5
C1
330
1F
100
AcDbEntity
  8
0
  6
Continuous
 62
     7
370
    25
100
AcDbLine
 10
356.3288817037
 20
-0.4579456975
 30
0.0
 11
356.3288817037
 21
112.0420513222
 31
0.0
  0
LINE
  5
C2
330
1F
100
AcDbEntity
  8
0
  6
Continuous
 62
     1
370
    25
100
AcDbLine
 10
532.1136725922
 20
112.0420513222
 30
0.0
 11
532.1136725922
 21
236.9940174291
 31
0.0
  0
LINE
  5
C3
330
1F
100
AcDbEntity
  8
0
  6
Continuous
 62
     1
370
    25
100
AcDbLine
 10
532.1136725922
 20
-12.9099147847
 30
0.0
 11
532.1136725922
 21
112.0420513222
 31
0.0
  0
LINE
  5
C4
330
1F
100
AcDbEntity
  8
0
  6
Continuous
 62
     1
370
    25
100
AcDbLine
 10
532.5493788202
 20
112.0420513222
 30
0.0
 11
532.5493788202
 21
237.0420513222
 31
0.0
  0
LINE
  5
C5
330
1F
100
AcDbEntity
  8
0
  6
Continuous
 62
     1
370
    25
100
AcDbLine
 10
532.5493788202
 20
-12.9579486778
 30
0.0
 11
532.5493788202
 21
112.0420513222
 31
0.0
  0
LINE
  5
C6
330
1F
100
AcDbEntity
  8
0
  6
Continuous
 62
     1
370
    25
100
AcDbLine
 10
476.5440834541
 20
112.0420513222
 30
0.0
 11
476.5440834541
 21
224.5900896857
 31
0.0
  0
LINE
  5
C7
330
1F
100
AcDbEntity
  8
0
  6
Continuous
 62
     1
370
    25
100
AcDbLine
 10
476.5440834541
 20
-0.5059870412
 30
0.0
 11
476.5440834541
 21
112.0420513222
 31
0.0
  0
LINE
  5
C8
330
1F
100
AcDbEntity
  8
0
  6
Continuous
 62
     1
370
    25
100
AcDbLine
 10
476.1083753635
 20
112.0420513222
 30
0.0
 11
476.1083753635
 21
224.542048342
 31
0.0
  0
LINE
  5
C9
330
1F
100
AcDbEntity
  8
0
  6
Continuous
 62
     1
370
    25
100
AcDbLine
 10
476.1083753635
 20
-0.4579456975
 30
0.0
 11
476.1083753635
 21
112.0420513222
 31
0.0
  0
ARC
  5
CA
330
1F
100
AcDbEntity
  8
0
  6
Continuous
 62
     7
370
    25
100
AcDbCircle
 10
7.6810329512
 20
-304.5265243335
 30
0.0
 40
2.000000000000019
100
AcDbArc
 50
167.4170375059
 51
180.0
  0
ARC
  5
CB
330
1F
100
AcDbEntity
  8
0
  6
Continuous
 62
     7
370
    25
100
AcDbCircle
 10
253.6810329512
 20
-304.5265243335
 30
0.0
 40
2.000000000000069
100
AcDbArc
 50
0.0
 51
12.5829624941
  0
LINE
  5
CC
330
1F
100
AcDbEntity
  8
0
  6
Continuous
 62
     7
370
    25
100
AcDbLine
 10
5.6810329512
 20
-304.5265243902
 30
0.0
 11
5.6810329512
 21
-433.3060195252
 31
0.0
  0
LINE
  5
CD
330
1F
100
AcDbEntity
  8
0
  6
Continuous
 62
     7
370
    25
100
AcDbLine
 10
255.6810329512
 20
-433.3060195252
 30
0.0
 11
255.6810329512
 21
-304.5265243902
 31
0.0
  0
LINE
  5
CE
330
1F
100
AcDbEntity
  8
0
  6
Continuous
 62
     7
370
    25
100
AcDbLine
 10
255.6329990581
 20
-304.0908181622
 30
0.0
 11
243.2290713146
 21
-248.5212290242
 31
0.0
  0
LINE
  5
CF
330
1F
100
AcDbEntity
  8
0
  6
Continuous
 62
     7
370
    25
100
AcDbLine
 10
18.1329945877
 20
-248.5212290242
 30
0.0
 11
5.7290668443
 21
-304.0908181622
 31
0.0
  0
ARC
  5
D0
330
1F
100
AcDbEntity
  8
0
  6
Continuous
 62
     7
370
    25
100
AcDbCircle
 10
16.1810329512
 20
-248.0855221822
 30
0.0
 40
2.000000000000028
100
AcDbArc
 50
347.4170375059
 51
0.0
  0
ARC
  5
D1
330
1F
100
AcDbEntity
  8
0
  6
Continuous
 62
     7
370
    25
100
AcDbCircle
 10
245.1810329512
 20
-248.0855221822
 30
0.0
 40
2.000000000000035
100
AcDbArc
 50
180.0
 51
192.5829624941
  0
LINE
  5
D2
330
1F
100
AcDbEntity
  8
0
  6
Continuous
 62
     7
370
    25
100
AcDbLine
 10
18.1810359314
 20
-128.3060272738
 30
0.0
 11
18.1810359314
 21
-248.0855209335
 31
0.0
  0
LINE
  5
D3
330
1F
100
AcDbEntity
  8
0
  6
Continuous
 62
     7
370
    25
100
AcDbLine
 10
243.1810299709
 20
-248.0855209335
 30
0.0
 11
243.1810299709
 21
-128.3060272738
 31
0.0
  0
LINE
  5
D4
330
1F
100
AcDbEntity
  8
0
  6
Continuous
 62
     7
370
    25
100
AcDbLine
 10
5.6810329512
 20
-433.3060195252
 30
0.0
 11
255.6810329512
 21
-433.3060195252
 31
0.0
  0
LINE
  5
D5
330
1F
100
AcDbEntity
  8
0
  6
Continuous
 62
     7
370
    25
100
AcDbLine
 10
18.1810359314
 20
-128.3060272738
 30
0.0
 11
243.1810299709
 21
-128.3060272738
 31
0.0
  0
LINE
  5
D6
330
1F
100
AcDbEntity
  8
0
  6
Continuous
 62
     1
370
    25
100
AcDbLine
 10
5.7290668443
 20
-304.0908181622
 30
0.0
 11
255.6329990581
 21
-304.0908181622
 31
0.0
  0
LINE
  5
D7
330
1F
100
AcDbEntity
  8
0
  6
Continuous
 62
     1
370
    25
100
AcDbLine
 10
5.6810329512
 20
-304.5265243902
 30
0.0
 11
255.6810329512
 21
-304.5265243902
 31
0.0
  0
LINE
  5
D8
330
1F
100
AcDbEntity
  8
0
  6
Continuous
 62
     1
370
    25
100
AcDbLine
 10
18.1329945877
 20
-248.5212290242
 30
0.0
 11
243.2290713146
 21
-248.5212290242
 31
0.0
  0
LINE
  5
D9
330
1F
100
AcDbEntity
  8
0
  6
Continuous
 62
     1
370
    25
100
AcDbLine
 10
18.1810359314
 20
-248.0855209335
 30
0.0
 11
243.1810299709
 21
-248.0855209335
 31
0.0
  0
LINE
  5
DA
330
1F
100
AcDbEntity
  8
0
  6
Continuous
 62
     7
370
    25
100
AcDbLine
 10
553.3591985627
 20
-141.0315235668
 30
0.0
 11
462.298344275
 21
-88.4632113345
 31
0.0
  0
LINE
  5
DB
330
1F
100
AcDbEntity
  8
0
  6
Continuous
 62
     7
370
    25
100
AcDbLine
 10
337.3085038048
 20
-304.9754235828
 30
0.0
 11
428.3693580925
 21
-357.5437358151
 31
0.0
  0
LINE
  5
DC
330
1F
100
AcDbEntity
  8
0
  6
Continuous
 62
     7
370
    25
100
AcDbLine
 10
439.3472291861
 20
-362.0168793203
 30
0.0
 11
483.7855228252
 21
-373.5276824334
 31
0.0
  0
LINE
  5
DD
330
1F
100
AcDbEntity
  8
0
  6
Continuous
 62
     7
370
    25
100
AcDbLine
 10
594.9135387747
 20
-181.0274582951
 30
0.0
 11
562.7226715026
 21
-148.3011908748
 31
0.0
  0
LINE
  5
DE
330
1F
100
AcDbEntity
  8
0
  6
Continuous
 62
     7
370
    25
100
AcDbLine
 10
671.7164145075
 20
-223.7910518824
 30
0.0
 11
591.3314794369
 21
-177.3858166294
 31
0.0
  0
LINE
  5
DF
330
1F
100
AcDbEntity
  8
0
  6
Continuous
 62
     7
370
    25
100
AcDbLine
 10
478.8406240673
 20
-372.2468155617
 30
0.0
 11
559.2255591379
 21
-418.6520508148
 31
0.0
  0
ARC
  5
E0
330
1F
100
AcDbEntity
  8
0
  6
Continuous
 62
     7
370
    25
100
AcDbCircle
 10
532.3080853292
 20
-177.4648604434
 30
0.0
 40
42.07775426912791
100
AcDbArc
 50
49.6187155952
 51
59.9807591373
  0
ARC
  5
E1
330
1F
100
AcDbEntity
  8
0
  6
Continuous
 62
     7
370
    25
100
AcDbCircle
 10
449.3988011358
 20
-321.0823347826
 30
0.0
 40
42.09122521340029
100
AcDbArc
 50
240.0254122511
 51
250.6356796964
  0
LWPOLYLINE
  5
E2
330
1F
100
AcDbEntity
  8
0
  6
Continuous
 62
     7
370
    25
100
AcDbPolyline
 90
      125
 70
   128
 43
0.0
 10
311.4150763916
 20
-247.7448244476
 10
311.5285199027
 20
-242.5096956205
 10
311.8685659448
 20
-237.1570227747
 10
312.4343399709
 20
-231.7005462519
 10
313.2243931829
 20
-226.1542709808
 10
314.2366867272
 20
-220.5324417611
 10
315.4686338408
 20
-214.8494782474
 10
316.9170629734
 20
-209.1199825505
 10
318.5782599341
 20
-203.3586495069
 10
320.4479626227
 20
-197.5802742825
 10
322.5213715668
 20
-191.7996884954
 10
324.7931604585
 20
-186.0317358813
 10
327.2574972277
 20
-180.2912145009
 10
329.9080651153
 20
-174.5928615323
 10
332.7380468687
 20
-168.9513076418
 10
335.7401879616
 20
-163.381034404
 10
338.9067755206
 20
-157.8963438812
 10
342.2296857408
 20
-152.5113069165
 10
345.7003891536
 20
-147.2397540087
 10
349.3099717006
 20
-142.0952083933
 10
353.0491716118
 20
-137.0908890882
 10
356.9083846742
 20
-132.2396348476
 10
360.8777116467
 20
-127.5538950411
 10
364.9469608945
 20
-123.0457037982
 10
369.1056879016
 20
-118.726632863
 10
373.3432110763
 20
-114.6077703032
 10
377.6486617998
 20
-110.6996794494
 10
382.0109804758
 20
-107.01240726
 10
386.4189731647
 20
-103.555402957
 10
390.8613234376
 20
-100.3375537689
 10
395.3266276086
 20
-97.3671159217
 10
399.8034240399
 20
-94.6517159729
 10
404.2802204711
 20
-92.1983167832
 10
408.7455246422
 20
-90.013224173
 10
413.1878749151
 20
-88.1020449104
 10
417.595867604
 20
-86.4696891849
 10
421.95818628
 20
-85.1203354386
 10
426.2636370035
 20
-84.0574586971
 10
430.5011601781
 20
-83.2837811401
 10
434.6598871853
 20
-82.801288077
 10
438.7291364331
 20
-82.6112241436
 10
442.6984634056
 20
-82.7140765771
 10
446.5576764679
 20
-83.1095782592
 10
450.2968763792
 20
-83.7967092408
 10
453.9064589262
 20
-84.7737195559
 10
457.377162339
 20
-86.0380835987
 10
460.7000725592
 20
-87.5865700864
 10
463.8666601182
 20
-89.415196435
 10
466.8688012111
 20
-91.5192713471
 10
469.6987829645
 20
-93.8933978543
 10
472.3493508521
 20
-96.5314702798
 10
474.8136876213
 20
-99.4267289897
 10
477.085476513
 20
-102.5717299805
 10
479.1588854571
 20
-105.9584087564
 10
481.0285881457
 20
-109.578071206
 10
482.6897851063
 20
-113.4214270642
 10
484.138214239
 20
-117.4786020809
 10
485.3701613526
 20
-121.7391897333
 10
486.3824548968
 20
-126.1922497048
 10
487.1725081089
 20
-130.8263489535
 10
487.738282135
 20
-135.6295966902
 10
488.0783281771
 20
-140.5896607327
 10
488.1917716882
 20
-145.6938104697
 10
488.0783281771
 20
-150.9289392968
 10
487.738282135
 20
-156.2816121426
 10
487.1725081089
 20
-161.7380886654
 10
486.3824548968
 20
-167.2843639365
 10
485.3701613526
 20
-172.9061931562
 10
484.138214239
 20
-178.5891566699
 10
482.6897851063
 20
-184.3186523668
 10
481.0285881457
 20
-190.0799854104
 10
479.1588854571
 20
-195.8583606348
 10
477.085476513
 20
-201.6389464219
 10
474.8136876213
 20
-207.406899036
 10
472.3493508521
 20
-213.1474204164
 10
469.6987829645
 20
-218.845773385
 10
466.8688012111
 20
-224.4873272755
 10
463.8666601182
 20
-230.0576005133
 10
460.7000725592
 20
-235.5422910361
 10
457.377162339
 20
-240.9273280008
 10
453.9064589262
 20
-246.1988809086
 10
450.2968763792
 20
-251.343426524
 10
446.5576764679
 20
-256.3477458291
 10
442.6984634056
 20
-261.1990000697
 10
438.7291364331
 20
-265.8847398762
 10
434.6598871853
 20
-270.3929311191
 10
430.5011601781
 20
-274.7120020543
 10
426.2636370035
 20
-278.8308646141
 10
421.95818628
 20
-282.7389554679
 10
417.595867604
 20
-286.4262276573
 10
413.1878749151
 20
-289.8832319603
 10
408.7455246422
 20
-293.1010811484
 10
404.2802204711
 20
-296.0715189956
 10
399.8034240399
 20
-298.7869189444
 10
395.3266276086
 20
-301.2403181341
 10
390.8613234376
 20
-303.4254107443
 10
386.4189731647
 20
-305.3365900069
 10
382.0109804758
 20
-306.9689457324
 10
377.6486617998
 20
-308.3182994787
 10
373.3432110763
 20
-309.3811762202
 10
369.1056879016
 20
-310.1548537772
 10
364.9469608945
 20
-310.6373468403
 10
360.8777116467
 20
-310.8274107737
 10
356.9083846742
 20
-310.7245583402
 10
353.0491716118
 20
-310.3290566581
 10
349.3099717006
 20
-309.6419256765
 10
345.7003891536
 20
-308.6649153614
 10
342.2296857408
 20
-307.4005513186
 10
338.9067755206
 20
-305.8520648309
 10
335.7401879616
 20
-304.0234384823
 10
332.7380468687
 20
-301.9193635702
 10
329.9080651153
 20
-299.545237063
 10
327.2574972277
 20
-296.9071646375
 10
324.7931604585
 20
-294.0119059276
 10
322.5213715668
 20
-290.8669049368
 10
320.4479626227
 20
-287.4802261609
 10
318.5782599341
 20
-283.8605637113
 10
316.9170629734
 20
-280.0172078531
 10
315.4686338408
 20
-275.9600328364
 10
314.2366867272
 20
-271.699445184
 10
313.2243931829
 20
-267.2463852125
 10
312.4343399709
 20
-262.6122859638
 10
311.8685659448
 20
-257.8090382271
 10
311.5285199027
 20
-252.8489741846
 10
311.4150763916
 20
-247.7448244476
  0
LWPOLYLINE
  5
E3
330
1F
100
AcDbEntity
  8
0
  6
Continuous
 62
     7
370
    25
100
AcDbPolyline
 90
      117
 70
   128
 43
0.0
 10
321.8802547807
 20
-241.7034055588
 10
321.9945359604
 20
-236.7658619094
 10
322.3370475932
 20
-231.7108527217
 10
322.9067781546
 20
-226.5532103492
 10
323.7020575759
 20
-221.3080591014
 10
324.7205572436
 20
-215.9907852054
 10
325.9592899998
 20
-210.6169839541
 10
327.4146154105
 20
-205.2024209224
 10
329.0822713757
 20
-199.7629741755
 10
330.9573688609
 20
-194.3145977663
 10
333.0343971657
 20
-188.8732791494
 10
335.3072766071
 20
-183.4549692239
 10
337.769332178
 20
-178.0755671216
 10
340.4133409624
 20
-172.7508532908
 10
343.2315584767
 20
-167.4964377869
 10
346.2157028652
 20
-162.327748104
 10
349.3570339253
 20
-157.2599227172
 10
352.6463320338
 20
-152.3078475829
 10
356.0739508307
 20
-147.4860344699
 10
359.6298356585
 20
-142.8086285653
 10
363.3035551723
 20
-138.2893598083
 10
367.0843355838
 20
-133.9414683679
 10
370.9610870035
 20
-129.7777198544
 10
374.9224376849
 20
-125.8103247139
 10
378.9567682687
 20
-122.0509123757
 10
383.0522460271
 20
-118.5105175668
 10
387.1968591084
 20
-115.1995240414
 10
391.3784474881
 20
-112.1276406289
 10
395.5847487384
 20
-109.3038748122
 10
399.8034240399
 20
-106.7365177111
 10
404.0220993414
 20
-104.4330959865
 10
408.2284005917
 20
-102.400369753
 10
412.4099889714
 20
-100.6442939882
 10
416.5546020527
 20
-99.1700191073
 10
420.6500798111
 20
-97.9818759461
 10
424.6844103949
 20
-97.0833493393
 10
428.6457610763
 20
-96.4770663365
 10
432.522512496
 20
-96.1648129352
 10
436.3032929075
 20
-96.1475082283
 10
439.9770124213
 20
-96.4251907194
 10
443.5328972491
 20
-96.9970593906
 10
446.960516046
 20
-97.8614280773
 10
450.2498141545
 20
-99.0157604527
 10
453.3911452146
 20
-100.4566821984
 10
456.3752896031
 20
-102.1799521081
 10
459.1935071174
 20
-104.18052293
 10
461.8375159017
 20
-106.4525291972
 10
464.2995714727
 20
-108.9893024442
 10
466.5724509141
 20
-111.7834016245
 10
468.6494792189
 20
-114.8266344055
 10
470.5245767041
 20
-118.1100693404
 10
472.1922326692
 20
-121.6240814939
 10
473.64755808
 20
-125.3583615722
 10
474.8862908362
 20
-129.3019524261
 10
475.9047905039
 20
-133.4432916362
 10
476.7000699252
 20
-137.7702328089
 10
477.2698004866
 20
-142.2700782767
 10
477.6123121194
 20
-146.9296319507
 10
477.7265932991
 20
-151.7352293585
 10
477.6123121194
 20
-156.6727730079
 10
477.2698004866
 20
-161.7277821956
 10
476.7000699252
 20
-166.8854245681
 10
475.9047905039
 20
-172.1305758159
 10
474.8862908362
 20
-177.4478497119
 10
473.64755808
 20
-182.8216509632
 10
472.1922326692
 20
-188.2362139949
 10
470.5245767041
 20
-193.6756607418
 10
468.6494792189
 20
-199.124037151
 10
466.5724509141
 20
-204.5653557679
 10
464.2995714727
 20
-209.9836656934
 10
461.8375159017
 20
-215.3630677957
 10
459.1935071174
 20
-220.6877816265
 10
456.3752896031
 20
-225.9421971304
 10
453.3911452146
 20
-231.1108868133
 10
450.2498141545
 20
-236.1787122001
 10
446.960516046
 20
-241.1307873344
 10
443.5328972491
 20
-245.9526004474
 10
439.9770124213
 20
-250.630006352
 10
436.3032929075
 20
-255.149275109
 10
432.522512496
 20
-259.4971665494
 10
428.6457610763
 20
-263.6609150629
 10
424.6844103949
 20
-267.6283102034
 10
420.6500798111
 20
-271.3877225416
 10
416.5546020527
 20
-274.9281173505
 10
412.4099889714
 20
-278.2391108759
 10
408.2284005917
 20
-281.3109942884
 10
404.0220993414
 20
-284.1347601051
 10
399.8034240399
 20
-286.7021172062
 10
395.5847487384
 20
-289.0055389308
 10
391.3784474881
 20
-291.0382651643
 10
387.1968591084
 20
-292.7943409291
 10
383.0522460271
 20
-294.26861581
 10
378.9567682687
 20
-295.4567589712
 10
374.9224376849
 20
-296.355285578
 10
370.9610870035
 20
-296.9615685808
 10
367.0843355838
 20
-297.2738219821
 10
363.3035551723
 20
-297.291126689
 10
359.6298356585
 20
-297.0134441979
 10
356.0739508307
 20
-296.4415755267
 10
352.6463320338
 20
-295.57720684
 10
349.3570339253
 20
-294.4228744646
 10
346.2157028652
 20
-292.9819527189
 10
343.2315584767
 20
-291.2586828092
 10
340.4133409624
 20
-289.2581119873
 10
337.769332178
 20
-286.9861057201
 10
335.3072766071
 20
-284.4493324731
 10
333.0343971657
 20
-281.6552332928
 10
330.9573688609
 20
-278.6120005118
 10
329.0822713757
 20
-275.3285655769
 10
327.4146154105
 20
-271.8145534234
 10
325.9592899998
 20
-268.0802733451
 10
324.7205572436
 20
-264.1366824912
 10
323.7020575759
 20
-259.9953432811
 10
322.9067781546
 20
-255.6684021084
 10
322.3370475932
 20
-251.1685566406
 10
321.9945359604
 20
-246.5090029666
 10
321.8802547807
 20
-241.7034055588
  0
ARC
  5
E4
330
1F
100
AcDbEntity
  8
0
  6
Continuous
 62
     7
370
    25
100
AcDbCircle
 10
529.9002229687
 20
-180.7460657273
 30
0.0
 40
46.14568944196757
100
AcDbArc
 50
32.0833705474
 51
52.1981398294
  0
ARC
  5
E5
330
1F
100
AcDbEntity
  8
0
  6
Continuous
 62
     7
370
    25
100
AcDbCircle
 10
451.0179700954
 20
-317.4046563895
 30
0.0
 40
46.10749162912302
100
AcDbArc
 50
247.8034042729
 51
267.6779897951
  0
ARC
  5
E6
330
1F
100
AcDbEntity
  8
0
  6
Continuous
 62
     7
370
    25
100
AcDbCircle
 10
564.2880021474
 20
-211.0259510393
 30
0.0
 40
42.86995522081585
100
AcDbArc
 50
34.8657741253
 51
44.407401861
  0
ARC
  5
E7
330
1F
100
AcDbEntity
  8
0
  6
Continuous
 62
     7
370
    25
100
AcDbCircle
 10
494.5213101709
 20
-331.6356361577
 30
0.0
 40
43.24581680453461
100
AcDbArc
 50
255.626001442
 51
266.9645683601
  0
LWPOLYLINE
  5
E8
330
1F
100
AcDbEntity
  8
0
  6
Continuous
 62
     7
370
    25
100
AcDbPolyline
 90
       61
 70
   128
 43
0.0
 10
671.7164145075
 20
-223.7910518824
 10
673.9219116748
 20
-225.168253323
 10
676.7109056181
 20
-227.2388539513
 10
679.326307229
 20
-229.5758497347
 10
681.7607039306
 20
-232.172633076
 10
684.0071941765
 20
-235.0218329212
 10
686.0594137926
 20
-238.1153755992
 10
687.9115412453
 20
-241.4444909056
 10
689.5583239838
 20
-244.9997455658
 10
690.9951047811
 20
-248.771055405
 10
692.2178006615
 20
-252.7477355363
 10
693.2229503149
 20
-256.9185125332
 10
694.0077035608
 20
-261.271563972
 10
694.5698371528
 20
-265.7945480918
 10
694.9077547791
 20
-270.4746475212
 10
695.0204975988
 20
-275.2985962751
 10
694.9077547791
 20
-280.252715118
 10
694.5698371528
 20
-285.3229659341
 10
694.0077035608
 20
-290.4949756844
 10
693.2229503149
 20
-295.7540839349
 10
692.2178006615
 20
-301.0853820192
 10
690.9951047811
 20
-306.4737567652
 10
689.5583239838
 20
-311.903938403
 10
687.9115412453
 20
-317.360527942
 10
686.0594137926
 20
-322.8280640877
 10
684.0071941765
 20
-328.2910490994
 10
681.7607039306
 20
-333.7339913732
 10
679.326307229
 20
-339.1414693188
 10
676.7109056181
 20
-344.4981435265
 10
673.9219116748
 20
-349.7888480198
 10
670.9672332018
 20
-354.9985720034
 10
667.855246885
 20
-360.1125450319
 10
664.5947666842
 20
-365.1162856773
 10
661.1950438326
 20
-369.9955954443
 10
657.6657115193
 20
-374.7366515425
 10
654.0167717183
 20
-379.3260144893
 10
650.2585714809
 20
-383.7506722146
 10
646.4017607889
 20
-387.9980887265
 10
642.4572741153
 20
-392.056214756
 10
638.4362909116
 20
-395.9135592369
 10
634.3502105833
 20
-399.5591733337
 10
630.2106142941
 20
-402.9827333284
 10
626.0292379657
 20
-406.1745379564
 10
621.817932765
 20
-409.125525133
 10
617.588636293
 20
-411.8273433391
 10
613.3533373524
 20
-414.2723293745
 10
609.1240408804
 20
-416.4535529365
 10
604.9127356798
 20
-418.3648352482
 10
600.7313593513
 20
-420.0007449682
 10
596.5917630621
 20
-421.3566611151
 10
592.5056827338
 20
-422.4287349465
 10
588.4846995301
 20
-423.2139188536
 10
584.5402128565
 20
-423.7100001985
 10
580.6834021645
 20
-423.9155625273
 10
576.9252019271
 20
-423.8300304352
 10
573.2762621261
 20
-423.4536437069
 10
569.7469298128
 20
-422.7874679613
 10
566.3472069612
 20
-421.8333946477
 10
563.0867267604
 20
-420.5941243132
 10
559.9747404436
 20
-419.0731742064
 10
559.2255591379
 20
-418.6520508148
  0
LWPOLYLINE
  5
E9
330
1F
100
AcDbEntity
  8
0
  6
Continuous
 62
     1
370
    25
100
AcDbPolyline
 90
       60
 70
   128
 43
0.0
 10
559.5690467337
 20
-145.4121322033
 10
560.7596372522
 20
-146.4617100866
 10
563.4102051398
 20
-149.0997825121
 10
565.874541909
 20
-151.995041222
 10
568.1463308007
 20
-155.1400422128
 10
570.2197397448
 20
-158.5267209887
 10
572.0894424334
 20
-162.1463834383
 10
573.750639394
 20
-165.9897392965
 10
575.1990685267
 20
-170.0469143132
 10
576.4310156403
 20
-174.3075019656
 10
577.4433091846
 20
-178.7605619371
 10
578.2333623966
 20
-183.3946611858
 10
578.7991364227
 20
-188.1979089225
 10
579.1391824648
 20
-193.157972965
 10
579.2526259759
 20
-198.262122702
 10
579.1391824648
 20
-203.4972515291
 10
578.7991364227
 20
-208.8499243749
 10
578.2333623966
 20
-214.3064008977
 10
577.4433091846
 20
-219.8526761688
 10
576.4310156403
 20
-225.4745053885
 10
575.1990685267
 20
-231.1574689022
 10
573.750639394
 20
-236.8869645991
 10
572.0894424334
 20
-242.6482976427
 10
570.2197397448
 20
-248.4266728671
 10
568.1463308007
 20
-254.2072586542
 10
565.874541909
 20
-259.9752112683
 10
563.4102051398
 20
-265.7157326487
 10
560.7596372522
 20
-271.4140856173
 10
557.9296554988
 20
-277.0556395078
 10
554.9275144059
 20
-282.6259127456
 10
551.7609268469
 20
-288.1106032684
 10
548.4380166267
 20
-293.4956402331
 10
544.9673132139
 20
-298.7671931409
 10
541.3577306669
 20
-303.9117387563
 10
537.6185307557
 20
-308.9160580614
 10
533.7593176933
 20
-313.767312302
 10
529.7899907208
 20
-318.4530521085
 10
525.720741473
 20
-322.9612433514
 10
521.5620144659
 20
-327.2803142866
 10
517.3244912912
 20
-331.3991768464
 10
513.0190405677
 20
-335.3072677002
 10
508.6567218917
 20
-338.9945398896
 10
504.2487292028
 20
-342.4515441926
 10
499.8063789299
 20
-345.6693933807
 10
495.3410747589
 20
-348.6398312279
 10
490.8642783276
 20
-351.3552311767
 10
486.3874818963
 20
-353.8086303665
 10
481.9221777253
 20
-355.9937229766
 10
477.4798274524
 20
-357.9049022392
 10
473.0718347635
 20
-359.5372579647
 10
468.7095160875
 20
-360.886611711
 10
464.404065364
 20
-361.9494884526
 10
460.1665421894
 20
-362.7231660095
 10
456.0078151822
 20
-363.2056590726
 10
451.9385659344
 20
-363.395723006
 10
447.9692389619
 20
-363.2928705725
 10
444.1100258995
 20
-362.8973688904
 10
440.3708259883
 20
-362.2102379088
 10
436.7612434413
 20
-361.2332275937
 10
435.4424580147
 20
-360.7924308118
  0
LWPOLYLINE
  5
EA
330
1F
100
AcDbEntity
  8
0
  6
Continuous
 62
     1
370
    25
100
AcDbPolyline
 90
       24
 70
   128
 43
0.0
 10
414.011113502
 20
-276.9918493581
 10
414.52903505
 20
-273.741357123
 10
415.5475347176
 20
-268.4240832271
 10
416.7862674739
 20
-263.0502819757
 10
418.2415928846
 20
-257.635718944
 10
419.9092488498
 20
-252.1962721972
 10
421.7843463349
 20
-246.7478957879
 10
423.8613746397
 20
-241.306577171
 10
426.1342540811
 20
-235.8882672455
 10
428.5963096521
 20
-230.5088651433
 10
431.2403184364
 20
-225.1841513124
 10
434.0585359508
 20
-219.9297358085
 10
437.0426803393
 20
-214.7610461256
 10
440.1840113994
 20
-209.6932207388
 10
443.4733095078
 20
-204.7411456046
 10
446.9009283048
 20
-199.9193324915
 10
450.4568131326
 20
-195.2419265869
 10
454.1305326463
 20
-190.7226578299
 10
457.9113130578
 20
-186.3747663895
 10
461.7880644776
 20
-182.211017876
 10
465.749415159
 20
-178.2436227356
 10
469.7837457427
 20
-174.4842103973
 10
473.8792235012
 20
-170.9438155884
 10
476.4227081005
 20
-168.880081158
  0
LWPOLYLINE
  5
EB
330
1F
100
AcDbEntity
  8
0
  6
Continuous
 62
     1
370
    25
100
AcDbPolyline
 90
       52
 70
   128
 43
0.0
 10
568.9983635877
 20
-156.235658668
 10
570.49733206
 20
-158.7394591302
 10
572.3663182522
 20
-162.3577283445
 10
574.0268777417
 20
-166.199605803
 10
575.474753697
 20
-170.2552233398
 10
576.7062213902
 20
-174.5141744311
 10
577.7181303444
 20
-178.9655202831
 10
578.5078779918
 20
-183.59784002
 10
579.0734307469
 20
-188.3992443739
 10
579.4133450802
 20
-193.3574030642
 10
579.5267517128
 20
-198.4595873815
 10
579.4133450802
 20
-203.6927082097
 10
579.0734307469
 20
-209.0433236355
 10
578.5078779918
 20
-214.4977013016
 10
577.7181303444
 20
-220.0418442634
 10
576.7062213902
 20
-225.6615153255
 10
575.474753697
 20
-231.342288751
 10
574.0268777417
 20
-237.069588283
 10
572.3663182522
 20
-242.8287069185
 10
570.49733206
 20
-248.6048616584
 10
568.424723906
 20
-254.3832239272
 10
566.153804293
 20
-260.1489651968
 10
563.690415828
 20
-265.8872782819
 10
561.0408700014
 20
-271.5834412133
 10
558.2119735294
 20
-277.2228233237
 10
555.2109862065
 20
-282.7909582481
 10
552.0456156377
 20
-288.2735408819
 10
548.7239803597
 20
-293.6565095071
 10
545.2546151093
 20
-298.9260366674
 10
541.64641814
 20
-304.0686021675
 10
537.9086564899
 20
-309.0709961155
 10
534.0509238356
 20
-313.9203919237
 10
530.0831220522
 20
-318.6043265344
 10
526.0154375062
 20
-323.1107871106
 10
521.8583094451
 20
-327.4281988658
 10
517.6224115583
 20
-331.545484378
 10
513.3186177327
 20
-335.452065108
 10
508.9579757111
 20
-339.1379252752
 10
504.5516767987
 20
-342.593598927
 10
500.1110334731
 20
-345.8102071999
 10
495.6474451398
 20
-348.7795024224
 10
491.172369156
 20
-351.4938665921
 10
486.6972931723
 20
-353.9463151745
 10
482.233704839
 20
-356.1305693453
 10
477.7930615134
 20
-358.0410187236
 10
473.386762601
 20
-359.6727495076
 10
469.0261205793
 20
-361.0215794523
 10
464.7223267538
 20
-362.084053304
 10
460.486428867
 20
-362.857431391
 10
456.3293008059
 20
-363.3397375303
 10
452.2616162599
 20
-363.5297255642
 10
449.1498959951
 20
-363.4742893757
  0
LWPOLYLINE
  5
EC
330
1F
100
AcDbEntity
  8
0
  6
Continuous
 62
     1
370
    25
100
AcDbPolyline
 90
       50
 70
   128
 43
0.0
 10
599.4625218915
 20
-186.5190903385
 10
601.0845696982
 20
-189.0075562084
 10
602.9374874043
 20
-192.3380951755
 10
604.5849761025
 20
-195.8948647441
 10
606.0223680292
 20
-199.6677868219
 10
607.2455854768
 20
-203.6461658763
 10
608.2511671354
 20
-207.8187223968
 10
609.0362522877
 20
-212.1736324381
 10
609.5986282241
 20
-216.6985473959
 10
609.936688096
 20
-221.380646856
 10
610.0494835993
 20
-226.2066526671
 10
609.936688096
 20
-231.1628893942
 10
609.5986282241
 20
-236.2353044743
 10
609.0362522877
 20
-241.4095248675
 10
608.2511671354
 20
-246.6708749314
 10
607.2455854768
 20
-252.004451322
 10
606.0223680292
 20
-257.3951271798
 10
604.5849761025
 20
-262.8276266511
 10
602.9374874043
 20
-268.2865461822
 10
601.0845696982
 20
-273.7564183958
 10
599.031475535
 20
-279.2217333837
 10
596.7840264483
 20
-284.6669995421
 10
594.3485866122
 20
-290.076789197
 10
591.7320681098
 20
-295.4357507723
 10
588.9418887865
 20
-300.7287091664
 10
585.9859459079
 20
-305.9406596667
 10
582.8726319654
 20
-311.0568166201
 10
579.6107609186
 20
-316.0626925147
 10
576.2095840008
 20
-320.9440888554
 10
572.6787449377
 20
-325.6871706854
 10
569.0282457033
 20
-330.2784924383
 10
565.2684412514
 20
-334.7050435657
 10
561.4099841981
 20
-338.9542683038
 10
557.4638116506
 20
-343.0141280305
 10
553.441113597
 20
-346.8731195131
 10
549.3532868086
 20
-350.5202893531
 10
545.2119243031
 20
-353.9453130731
 10
541.0287620019
 20
-357.1384772412
 10
536.8156583162
 20
-360.0907277582
 10
532.5845562798
 20
-362.7936978011
 10
528.3474486468
 20
-365.2397279724
 10
524.1163466104
 20
-367.4218843579
 10
519.9032429246
 20
-369.3339798159
 10
515.7200806235
 20
-370.9705920361
 10
511.5787181179
 20
-372.3270836876
 10
507.4908913296
 20
-373.3996181957
 10
503.468193276
 20
-374.1851350246
 10
499.5220207284
 20
-374.6814291409
 10
495.6635636751
 20
-374.8870840917
 10
492.2312929198
 20
-374.8207781869
  0
LWPOLYLINE
  5
ED
330
1F
100
AcDbEntity
  8
0
  6
Continuous
 62
     1
370
    25
100
AcDbPolyline
 90
       24
 70
   128
 43
0.0
 10
415.0541729286
 20
-276.1578448587
 10
415.3821965822
 20
-274.1592027327
 10
416.3995846268
 20
-268.8477249806
 10
417.6369634155
 20
-263.4797806874
 10
419.0907083194
 20
-258.0711156576
 10
420.7565467017
 20
-252.6375973089
 10
422.6296000647
 20
-247.1951584021
 10
424.7043682447
 20
-241.7597650999
 10
426.9747662905
 20
-236.3473652592
 10
429.4341402682
 20
-230.9738275951
 10
432.0752672618
 20
-225.6549143048
 10
434.8904080561
 20
-220.4062293606
 10
437.8713071374
 20
-215.2431607148
 10
441.009213766
 20
-210.1808650929
 10
444.2949293923
 20
-205.2341858671
 10
447.7188102906
 20
-200.4176272019
 10
451.2708176084
 20
-195.7453251604
 10
454.9405358057
 20
-191.2309762229
 10
458.7171963628
 20
-186.8878236006
 10
462.5897225609
 20
-182.7286131332
 10
466.5467558245
 20
-178.7655354959
 10
470.5766912823
 20
-175.0102239216
 10
474.667705426
 20
-171.473689564
 10
476.2220930529
 20
-170.2004182523
  0
LWPOLYLINE
  5
EE
330
1F
100
AcDbEntity
  8
0
  6
Continuous
 62
     1
370
    25
100
AcDbPolyline
 90
       56
 70
   128
 43
0.0
 10
593.7855402775
 20
-179.8806983437
 10
594.6294150151
 20
-180.6813746078
 10
597.0638117167
 20
-183.2781579491
 10
599.3103019626
 20
-186.1273577943
 10
601.3625215787
 20
-189.2209004723
 10
603.2146490314
 20
-192.5500157787
 10
604.8614317699
 20
-196.1052704389
 10
606.2982125672
 20
-199.8765802781
 10
607.5209084476
 20
-203.8532604094
 10
608.526058101
 20
-208.0240374063
 10
609.3108113469
 20
-212.3770888451
 10
609.8729449389
 20
-216.9000729649
 10
610.2108625652
 20
-221.5801723943
 10
610.323605385
 20
-226.4041211482
 10
610.2108625652
 20
-231.3582399911
 10
609.8729449389
 20
-236.4284908072
 10
609.3108113469
 20
-241.6005005575
 10
608.526058101
 20
-246.859608808
 10
607.5209084476
 20
-252.1909068923
 10
606.2982125672
 20
-257.5792816383
 10
604.8614317699
 20
-263.0094632761
 10
603.2146490314
 20
-268.4660528151
 10
601.3625215787
 20
-273.9335889608
 10
599.3103019626
 20
-279.3965739725
 10
597.0638117167
 20
-284.8395162463
 10
594.6294150151
 20
-290.2469941919
 10
592.0140134042
 20
-295.6036683996
 10
589.225019461
 20
-300.8943728929
 10
586.2703409879
 20
-306.1040968765
 10
583.1583546711
 20
-311.218069905
 10
579.8978744703
 20
-316.2218105503
 10
576.4981516187
 20
-321.1011203174
 10
572.9688193054
 20
-325.8421764156
 10
569.3198795044
 20
-330.4315393624
 10
565.561679267
 20
-334.8561970877
 10
561.704868575
 20
-339.1036135996
 10
557.7603819014
 20
-343.1617396291
 10
553.7393986977
 20
-347.01908411
 10
549.6533183694
 20
-350.6646982068
 10
545.5137220802
 20
-354.0882582014
 10
541.3323457518
 20
-357.2800628294
 10
537.1210405511
 20
-360.2310500061
 10
532.8917440791
 20
-362.9328682122
 10
528.6564451385
 20
-365.3778542476
 10
524.4271486665
 20
-367.5590778095
 10
520.2158434659
 20
-369.4703601213
 10
516.0344671374
 20
-371.1062698413
 10
511.8948708482
 20
-372.4621859881
 10
507.8087905199
 20
-373.5342598196
 10
503.7878073163
 20
-374.3194437267
 10
499.8433206426
 20
-374.8155250716
 10
495.9865099506
 20
-375.0210874004
 10
492.2283097132
 20
-374.9355553083
 10
488.5793699122
 20
-374.55916858
 10
485.0500375989
 20
-373.8929928344
 10
482.228364043
 20
-373.1243350698
  0
ENDSEC
  0
SECTION
  2
OBJECTS
  0
DICTIONARY
  5
C
330
0
100
AcDbDictionary
281
     1
  3
ACAD_GROUP
350
D
  3
ACAD_LAYOUT
350
1A
  3
ACAD_MLINESTYLE
350
17
  3
ACAD_PLOTSETTINGS
350
19
  3
ACAD_PLOTSTYLENAME
350
E
  3
ACAD_SCALELIST
350
47
  0
DICTIONARY
  5
D
102
{ACAD_REACTORS
330
C
102
}
330
C
100
AcDbDictionary
281
     1
  0
DICTIONARY
  5
1A
102
{ACAD_REACTORS
330
C
102
}
330
C
100
AcDbDictionary
281
     1
  3
Layout1
350
1E
  3
Layout2
350
26
  3
Model
350
22
  0
DICTIONARY
  5
17
102
{ACAD_REACTORS
330
C
102
}
330
C
100
AcDbDictionary
281
     1
  3
Standard
350
18
  0
DICTIONARY
  5
19
102
{ACAD_REACTORS
330
C
102
}
330
C
100
AcDbDictionary
281
     1
  0
ACDBDICTIONARYWDFLT
  5
E
102
{ACAD_REACTORS
330
C
102
}
330
C
100
AcDbDictionary
281
     1
  3
Normal
350
F
100
AcDbDictionaryWithDefault
340
F
  0
DICTIONARY
  5
47
102
{ACAD_REACTORS
330
C
102
}
330
C
100
AcDbDictionary
281
     1
  3
A0
350
48
  3
A1
350
49
  3
A2
350
4A
  3
A3
350
4B
  3
A4
350
4C
  3
A5
350
4D
  3
A6
350
4E
  3
A7
350
4F
  3
A8
350
50
  3
A9
350
51
  3
B0
350
52
  3
B1
350
53
  3
B2
350
54
  3
B3
350
55
  3
B4
350
56
  3
B5
350
57
  3
B6
350
58
  3
B7
350
59
  3
B8
350
5A
  3
B9
350
5B
  3
C0
350
5C
  3
C1
350
5D
  3
C2
350
5E
  3
C3
350
5F
  3
C4
350
60
  3
C5
350
61
  3
C6
350
62
  3
C7
350
63
  3
C8
350
64
  3
C9
350
65
  3
D0
350
66
  3
D1
350
67
  3
D2
350
68
  0
LAYOUT
  5
1E
102
{ACAD_REACTORS
330
1A
102
}
330
1A
100
AcDbPlotSettings
  1

  2
none_device
  4

  6

 40
0.0
 41
0.0
 42
0.0
 43
0.0
 44
0.0
 45
0.0
 46
0.0
 47
0.0
 48
0.0
 49
0.0
140
0.0
141
0.0
142
1.0
143
1.0
 70
   688
 72
     1
 73
     0
 74
     5
  7

 75
    16
147
1.0
148
0.0
149
0.0
100
AcDbLayout
  1
Layout1
 70
     1
 71
     1
 10
0.0
 20
0.0
 11
420.0
 21
297.0
 12
0.0
 22
0.0
 32
0.0
 14
1.0000000000E+20
 24
1.0000000000E+20
 34
1.0000000000E+20
 15
-1.0000000000E+20
 25
-1.0000000000E+20
 35
-1.0000000000E+20
146
0.0
 13
0.0
 23
0.0
 33
0.0
 16
1.0
 26
0.0
 36
0.0
 17
0.0
 27
1.0
 37
0.0
 76
     0
330
1B
  0
LAYOUT
  5
26
102
{ACAD_REACTORS
330
1A
102
}
330
1A
100
AcDbPlotSettings
  1

  2
none_device
  4

  6

 40
0.0
 41
0.0
 42
0.0
 43
0.0
 44
0.0
 45
0.0
 46
0.0
 47
0.0
 48
0.0
 49
0.0
140
0.0
141
0.0
142
1.0
143
1.0
 70
   688
 72
     1
 73
     0
 74
     5
  7

 75
    16
147
1.0
148
0.0
149
0.0
100
AcDbLayout
  1
Layout2
 70
     1
 71
     2
 10
0.0
 20
0.0
 11
0.0
 21
0.0
 12
0.0
 22
0.0
 32
0.0
 14
0.0
 24
0.0
 34
0.0
 15
0.0
 25
0.0
 35
0.0
146
0.0
 13
0.0
 23
0.0
 33
0.0
 16
1.0
 26
0.0
 36
0.0
 17
0.0
 27
1.0
 37
0.0
 76
     0
330
23
  0
LAYOUT
  5
22
102
{ACAD_REACTORS
330
1A
102
}
330
1A
100
AcDbPlotSettings
  1

  2
none_device
  4
Letter_(8.50_x_11.00_Inches)
  6

 40
6.35
 41
6.35
 42
6.35000508
 43
6.35000508
 44
215.9
 45
279.4
 46
0.0
 47
0.0
 48
0.0
 49
0.0
140
0.0
141
0.0
142
1.0
143
1.0
 70
  1712
 72
     1
 73
     0
 74
     0
  7

 75
     0
147
1.0
148
0.0
149
0.0
100
AcDbLayout
  1
Model
 70
     1
 71
     0
 10
0.0
 20
0.0
 11
279.4
 21
215.9
 12
0.0
 22
0.0
 32
0.0
 14
0.0
 24
0.0
 34
0.0
 15
279.4
 25
215.9
 35
0.0
146
0.0
 13
0.0
 23
0.0
 33
0.0
 16
1.0
 26
0.0
 36
0.0
 17
0.0
 27
1.0
 37
0.0
 76
     0
330
1F
331
29
  0
MLINESTYLE
  5
18
102
{ACAD_REACTORS
330
17
102
}
330
17
100
AcDbMlineStyle
  2
Standard
 70
     0
  3

 62
   256
 51
90.0
 52
90.0
 71
     2
 49
0.5
 62
   256
  6
BYLAYER
 49
-0.5
 62
   256
  6
BYLAYER
  0
ACDBPLACEHOLDER
  5
F
102
{ACAD_REACTORS
330
E
102
}
330
E
  0
SCALE
  5
48
102
{ACAD_REACTORS
330
47
102
}
330
47
100
AcDbScale
 70
     0
300
1:1
140
1.0
141
1.0
290
     1
  0
SCALE
  5
49
102
{ACAD_REACTORS
330
47
102
}
330
47
100
AcDbScale
 70
     0
300
1:2
140
1.0
141
2.0
290
     0
  0
SCALE
  5
4A
102
{ACAD_REACTORS
330
47
102
}
330
47
100
AcDbScale
 70
     0
300
1:4
140
1.0
141
4.0
290
     0
  0
SCALE
  5
4B
102
{ACAD_REACTORS
330
47
102
}
330
47
100
AcDbScale
 70
     0
300
1:5
140
1.0
141
5.0
290
     0
  0
SCALE
  5
4C
102
{ACAD_REACTORS
330
47
102
}
330
47
100
AcDbScale
 70
     0
300
1:8
140
1.0
141
8.0
290
     0
  0
SCALE
  5
4D
102
{ACAD_REACTORS
330
47
102
}
330
47
100
AcDbScale
 70
     0
300
1:10
140
1.0
141
10.0
290
     0
  0
SCALE
  5
4E
102
{ACAD_REACTORS
330
47
102
}
330
47
100
AcDbScale
 70
     0
300
1:16
140
1.0
141
16.0
290
     0
  0
SCALE
  5
4F
102
{ACAD_REACTORS
330
47
102
}
330
47
100
AcDbScale
 70
     0
300
1:20
140
1.0
141
20.0
290
     0
  0
SCALE
  5
50
102
{ACAD_REACTORS
330
47
102
}
330
47
100
AcDbScale
 70
     0
300
1:30
140
1.0
141
30.0
290
     0
  0
SCALE
  5
51
102
{ACAD_REACTORS
330
47
102
}
330
47
100
AcDbScale
 70
     0
300
1:40
140
1.0
141
40.0
290
     0
  0
SCALE
  5
52
102
{ACAD_REACTORS
330
47
102
}
330
47
100
AcDbScale
 70
     0
300
1:50
140
1.0
141
50.0
290
     0
  0
SCALE
  5
53
102
{ACAD_REACTORS
330
47
102
}
330
47
100
AcDbScale
 70
     0
300
1:100
140
1.0
141
100.0
290
     0
  0
SCALE
  5
54
102
{ACAD_REACTORS
330
47
102
}
330
47
100
AcDbScale
 70
     0
300
2:1
140
2.0
141
1.0
290
     0
  0
SCALE
  5
55
102
{ACAD_REACTORS
330
47
102
}
330
47
100
AcDbScale
 70
     0
300
4:1
140
4.0
141
1.0
290
     0
  0
SCALE
  5
56
102
{ACAD_REACTORS
330
47
102
}
330
47
100
AcDbScale
 70
     0
300
8:1
140
8.0
141
1.0
290
     0
  0
SCALE
  5
57
102
{ACAD_REACTORS
330
47
102
}
330
47
100
AcDbScale
 70
     0
300
10:1
140
10.0
141
1.0
290
     0
  0
SCALE
  5
58
102
{ACAD_REACTORS
330
47
102
}
330
47
100
AcDbScale
 70
     0
300
100:1
140
100.0
141
1.0
290
     0
  0
SCALE
  5
59
102
{ACAD_REACTORS
330
47
102
}
330
47
100
AcDbScale
 70
     0
300
1/128" = 1'-0"
140
0.0078125
141
12.0
290
     0
  0
SCALE
  5
5A
102
{ACAD_REACTORS
330
47
102
}
330
47
100
AcDbScale
 70
     0
300
1/64" = 1'-0"
140
0.015625
141
12.0
290
     0
  0
SCALE
  5
5B
102
{ACAD_REACTORS
330
47
102
}
330
47
100
AcDbScale
 70
     0
300
1/32" = 1'-0"
140
0.03125
141
12.0
290
     0
  0
SCALE
  5
5C
102
{ACAD_REACTORS
330
47
102
}
330
47
100
AcDbScale
 70
     0
300
1/16" = 1'-0"
140
0.0625
141
12.0
290
     0
  0
SCALE
  5
5D
102
{ACAD_REACTORS
330
47
102
}
330
47
100
AcDbScale
 70
     0
300
3/32" = 1'-0"
140
0.09375
141
12.0
290
     0
  0
SCALE
  5
5E
102
{ACAD_REACTORS
330
47
102
}
330
47
100
AcDbScale
 70
     0
300
1/8" = 1'-0"
140
0.125
141
12.0
290
     0
  0
SCALE
  5
5F
102
{ACAD_REACTORS
330
47
102
}
330
47
100
AcDbScale
 70
     0
300
3/16" = 1'-0"
140
0.1875
141
12.0
290
     0
  0
SCALE
  5
60
102
{ACAD_REACTORS
330
47
102
}
330
47
100
AcDbScale
 70
     0
300
1/4" = 1'-0"
140
0.25
141
12.0
290
     0
  0
SCALE
  5
61
102
{ACAD_REACTORS
330
47
102
}
330
47
100
AcDbScale
 70
     0
300
3/8" = 1'-0"
140
0.375
141
12.0
290
     0
  0
SCALE
  5
62
102
{ACAD_REACTORS
330
47
102
}
330
47
100
AcDbScale
 70
     0
300
1/2" = 1'-0"
140
0.5
141
12.0
290
     0
  0
SCALE
  5
63
102
{ACAD_REACTORS
330
47
102
}
330
47
100
AcDbScale
 70
     0
300
3/4" = 1'-0"
140
0.75
141
12.0
290
     0
  0
SCALE
  5
64
102
{ACAD_REACTORS
330
47
102
}
330
47
100
AcDbScale
 70
     0
300
1" = 1'-0"
140
1.0
141
12.0
290
     0
  0
SCALE
  5
65
102
{ACAD_REACTORS
330
47
102
}
330
47
100
AcDbScale
 70
     0
300
1-1/2" = 1'-0"
140
1.5
141
12.0
290
     0
  0
SCALE
  5
66
102
{ACAD_REACTORS
330
47
102
}
330
47
100
AcDbScale
 70
     0
300
3" = 1'-0"
140
3.0
141
12.0
290
     0
  0
SCALE
  5
67
102
{ACAD_REACTORS
330
47
102
}
330
47
100
AcDbScale
 70
     0
300
6" = 1'-0"
140
6.0
141
12.0
290
     0
  0
SCALE
  5
68
102
{ACAD_REACTORS
330
47
102
}
330
47
100
AcDbScale
 70
     0
300
1'-0" = 1'-0"
140
12.0
141
12.0
290
     0
  0
ENDSEC
  0
EOF
